ISO-10303-21;
HEADER;
/* Generated by software containing ST-Developer
 * from STEP Tools, Inc. (www.steptools.com) 
 */

FILE_DESCRIPTION(
/* description */ (''),
/* implementation_level */ '2;1');

FILE_NAME(
/* name */ '\\\\SERVER1\\dwgs\\product\\Screws\\11489.stp',
/* time_stamp */ '2017-04-17T14:08:38-04:00',
/* author */ ('tsmith'),
/* organization */ (''),
/* preprocessor_version */ 'ST-DEVELOPER v16.5',
/* originating_system */ 'Autodesk Inventor 2017',
/* authorisation */ '');

FILE_SCHEMA (('AUTOMOTIVE_DESIGN { 1 0 10303 214 3 1 1 }'));
ENDSEC;

DATA;
#10=MECHANICAL_DESIGN_GEOMETRIC_PRESENTATION_REPRESENTATION('',(#13),#269);
#11=SHAPE_REPRESENTATION_RELATIONSHIP('SRR','None',#281,#12);
#12=ADVANCED_BREP_SHAPE_REPRESENTATION('',(#14),#268);
#13=STYLED_ITEM('',(#290),#14);
#14=MANIFOLD_SOLID_BREP('Solid1',#150);
#15=SPHERICAL_SURFACE('',#172,0.2);
#16=CONICAL_SURFACE('',#169,0.1125,45.);
#17=CONICAL_SURFACE('',#170,0.1125,45.);
#18=FACE_BOUND('',#37,.T.);
#19=CYLINDRICAL_SURFACE('',#163,0.125);
#20=(
BOUNDED_CURVE()
B_SPLINE_CURVE(2,(#232,#233,#234),.UNSPECIFIED.,.F.,.F.)
B_SPLINE_CURVE_WITH_KNOTS((3,3),(0.,0.0907458226294682),.UNSPECIFIED.)
CURVE()
GEOMETRIC_REPRESENTATION_ITEM()
RATIONAL_B_SPLINE_CURVE((1.,1.00649629416727,1.))
REPRESENTATION_ITEM('')
);
#21=(
BOUNDED_CURVE()
B_SPLINE_CURVE(2,(#237,#238,#239),.UNSPECIFIED.,.F.,.F.)
B_SPLINE_CURVE_WITH_KNOTS((3,3),(0.,0.0907458226294682),.UNSPECIFIED.)
CURVE()
GEOMETRIC_REPRESENTATION_ITEM()
RATIONAL_B_SPLINE_CURVE((1.,1.00649629416727,1.))
REPRESENTATION_ITEM('')
);
#22=(
BOUNDED_CURVE()
B_SPLINE_CURVE(2,(#244,#245,#246),.UNSPECIFIED.,.F.,.F.)
B_SPLINE_CURVE_WITH_KNOTS((3,3),(0.,0.0907458226294682),.UNSPECIFIED.)
CURVE()
GEOMETRIC_REPRESENTATION_ITEM()
RATIONAL_B_SPLINE_CURVE((1.,1.00649629416727,1.))
REPRESENTATION_ITEM('')
);
#23=(
BOUNDED_CURVE()
B_SPLINE_CURVE(2,(#250,#251,#252),.UNSPECIFIED.,.F.,.F.)
B_SPLINE_CURVE_WITH_KNOTS((3,3),(0.,0.0907458226294682),.UNSPECIFIED.)
CURVE()
GEOMETRIC_REPRESENTATION_ITEM()
RATIONAL_B_SPLINE_CURVE((1.,1.00649629416727,1.))
REPRESENTATION_ITEM('')
);
#24=FACE_OUTER_BOUND('',#33,.T.);
#25=FACE_OUTER_BOUND('',#34,.T.);
#26=FACE_OUTER_BOUND('',#35,.T.);
#27=FACE_OUTER_BOUND('',#36,.T.);
#28=FACE_OUTER_BOUND('',#38,.T.);
#29=FACE_OUTER_BOUND('',#39,.T.);
#30=FACE_OUTER_BOUND('',#40,.T.);
#31=FACE_OUTER_BOUND('',#41,.T.);
#32=FACE_OUTER_BOUND('',#42,.T.);
#33=EDGE_LOOP('',(#98,#99,#100,#101));
#34=EDGE_LOOP('',(#102,#103,#104,#105,#106,#107));
#35=EDGE_LOOP('',(#108,#109,#110,#111,#112,#113));
#36=EDGE_LOOP('',(#114,#115,#116,#117,#118,#119,#120,#121));
#37=EDGE_LOOP('',(#122));
#38=EDGE_LOOP('',(#123,#124));
#39=EDGE_LOOP('',(#125,#126,#127,#128));
#40=EDGE_LOOP('',(#129,#130,#131,#132));
#41=EDGE_LOOP('',(#133));
#42=EDGE_LOOP('',(#134,#135));
#43=LINE('',#222,#51);
#44=LINE('',#225,#52);
#45=LINE('',#228,#53);
#46=LINE('',#230,#54);
#47=LINE('',#236,#55);
#48=LINE('',#242,#56);
#49=LINE('',#248,#57);
#50=LINE('',#253,#58);
#51=VECTOR('',#180,0.393700787401575);
#52=VECTOR('',#183,0.393700787401575);
#53=VECTOR('',#186,0.393700787401575);
#54=VECTOR('',#187,0.393700787401575);
#55=VECTOR('',#188,0.393700787401575);
#56=VECTOR('',#191,0.393700787401575);
#57=VECTOR('',#192,0.393700787401575);
#58=VECTOR('',#193,0.393700787401575);
#59=CIRCLE('',#159,0.125);
#60=CIRCLE('',#160,0.125);
#61=CIRCLE('',#164,0.125);
#62=CIRCLE('',#165,0.125);
#63=CIRCLE('',#166,0.125);
#64=CIRCLE('',#168,0.0999999999999998);
#65=CIRCLE('',#171,0.0999999999999998);
#66=VERTEX_POINT('',#218);
#67=VERTEX_POINT('',#219);
#68=VERTEX_POINT('',#221);
#69=VERTEX_POINT('',#223);
#70=VERTEX_POINT('',#227);
#71=VERTEX_POINT('',#229);
#72=VERTEX_POINT('',#231);
#73=VERTEX_POINT('',#235);
#74=VERTEX_POINT('',#241);
#75=VERTEX_POINT('',#243);
#76=VERTEX_POINT('',#247);
#77=VERTEX_POINT('',#249);
#78=VERTEX_POINT('',#257);
#79=EDGE_CURVE('',#66,#67,#59,.T.);
#80=EDGE_CURVE('',#68,#66,#43,.T.);
#81=EDGE_CURVE('',#69,#68,#60,.T.);
#82=EDGE_CURVE('',#67,#69,#44,.T.);
#83=EDGE_CURVE('',#67,#70,#45,.T.);
#84=EDGE_CURVE('',#71,#69,#46,.T.);
#85=EDGE_CURVE('',#72,#71,#20,.T.);
#86=EDGE_CURVE('',#73,#72,#47,.T.);
#87=EDGE_CURVE('',#70,#73,#21,.T.);
#88=EDGE_CURVE('',#74,#66,#48,.T.);
#89=EDGE_CURVE('',#75,#74,#22,.T.);
#90=EDGE_CURVE('',#76,#75,#49,.T.);
#91=EDGE_CURVE('',#77,#76,#23,.T.);
#92=EDGE_CURVE('',#68,#77,#50,.T.);
#93=EDGE_CURVE('',#70,#71,#61,.T.);
#94=EDGE_CURVE('',#77,#74,#62,.T.);
#95=EDGE_CURVE('',#78,#78,#63,.T.);
#96=EDGE_CURVE('',#72,#73,#64,.T.);
#97=EDGE_CURVE('',#75,#76,#65,.T.);
#98=ORIENTED_EDGE('',*,*,#79,.F.);
#99=ORIENTED_EDGE('',*,*,#80,.F.);
#100=ORIENTED_EDGE('',*,*,#81,.F.);
#101=ORIENTED_EDGE('',*,*,#82,.F.);
#102=ORIENTED_EDGE('',*,*,#83,.F.);
#103=ORIENTED_EDGE('',*,*,#82,.T.);
#104=ORIENTED_EDGE('',*,*,#84,.F.);
#105=ORIENTED_EDGE('',*,*,#85,.F.);
#106=ORIENTED_EDGE('',*,*,#86,.F.);
#107=ORIENTED_EDGE('',*,*,#87,.F.);
#108=ORIENTED_EDGE('',*,*,#88,.F.);
#109=ORIENTED_EDGE('',*,*,#89,.F.);
#110=ORIENTED_EDGE('',*,*,#90,.F.);
#111=ORIENTED_EDGE('',*,*,#91,.F.);
#112=ORIENTED_EDGE('',*,*,#92,.F.);
#113=ORIENTED_EDGE('',*,*,#80,.T.);
#114=ORIENTED_EDGE('',*,*,#88,.T.);
#115=ORIENTED_EDGE('',*,*,#79,.T.);
#116=ORIENTED_EDGE('',*,*,#83,.T.);
#117=ORIENTED_EDGE('',*,*,#93,.T.);
#118=ORIENTED_EDGE('',*,*,#84,.T.);
#119=ORIENTED_EDGE('',*,*,#81,.T.);
#120=ORIENTED_EDGE('',*,*,#92,.T.);
#121=ORIENTED_EDGE('',*,*,#94,.T.);
#122=ORIENTED_EDGE('',*,*,#95,.T.);
#123=ORIENTED_EDGE('',*,*,#86,.T.);
#124=ORIENTED_EDGE('',*,*,#96,.T.);
#125=ORIENTED_EDGE('',*,*,#87,.T.);
#126=ORIENTED_EDGE('',*,*,#96,.F.);
#127=ORIENTED_EDGE('',*,*,#85,.T.);
#128=ORIENTED_EDGE('',*,*,#93,.F.);
#129=ORIENTED_EDGE('',*,*,#89,.T.);
#130=ORIENTED_EDGE('',*,*,#94,.F.);
#131=ORIENTED_EDGE('',*,*,#91,.T.);
#132=ORIENTED_EDGE('',*,*,#97,.F.);
#133=ORIENTED_EDGE('',*,*,#95,.F.);
#134=ORIENTED_EDGE('',*,*,#90,.T.);
#135=ORIENTED_EDGE('',*,*,#97,.T.);
#136=PLANE('',#158);
#137=PLANE('',#161);
#138=PLANE('',#162);
#139=PLANE('',#167);
#140=PLANE('',#173);
#141=ADVANCED_FACE('',(#24),#136,.F.);
#142=ADVANCED_FACE('',(#25),#137,.F.);
#143=ADVANCED_FACE('',(#26),#138,.F.);
#144=ADVANCED_FACE('',(#27,#18),#19,.T.);
#145=ADVANCED_FACE('',(#28),#139,.T.);
#146=ADVANCED_FACE('',(#29),#16,.T.);
#147=ADVANCED_FACE('',(#30),#17,.T.);
#148=ADVANCED_FACE('',(#31),#15,.T.);
#149=ADVANCED_FACE('',(#32),#140,.T.);
#150=CLOSED_SHELL('',(#141,#142,#143,#144,#145,#146,#147,#148,#149));
#151=DATE_TIME_ROLE('creation_date');
#152=APPLIED_DATE_AND_TIME_ASSIGNMENT(#153,#151,(#283));
#153=DATE_AND_TIME(#154,#155);
#154=CALENDAR_DATE(2014,15,12);
#155=LOCAL_TIME(15,45,22.,#156);
#156=COORDINATED_UNIVERSAL_TIME_OFFSET(0,0,.BEHIND.);
#157=AXIS2_PLACEMENT_3D('placement',#216,#174,#175);
#158=AXIS2_PLACEMENT_3D('',#217,#176,#177);
#159=AXIS2_PLACEMENT_3D('',#220,#178,#179);
#160=AXIS2_PLACEMENT_3D('',#224,#181,#182);
#161=AXIS2_PLACEMENT_3D('',#226,#184,#185);
#162=AXIS2_PLACEMENT_3D('',#240,#189,#190);
#163=AXIS2_PLACEMENT_3D('',#254,#194,#195);
#164=AXIS2_PLACEMENT_3D('',#255,#196,#197);
#165=AXIS2_PLACEMENT_3D('',#256,#198,#199);
#166=AXIS2_PLACEMENT_3D('',#258,#200,#201);
#167=AXIS2_PLACEMENT_3D('',#259,#202,#203);
#168=AXIS2_PLACEMENT_3D('',#260,#204,#205);
#169=AXIS2_PLACEMENT_3D('',#261,#206,#207);
#170=AXIS2_PLACEMENT_3D('',#262,#208,#209);
#171=AXIS2_PLACEMENT_3D('',#263,#210,#211);
#172=AXIS2_PLACEMENT_3D('',#264,#212,#213);
#173=AXIS2_PLACEMENT_3D('',#265,#214,#215);
#174=DIRECTION('axis',(0.,0.,1.));
#175=DIRECTION('refdir',(1.,0.,0.));
#176=DIRECTION('center_axis',(0.,0.,-1.));
#177=DIRECTION('ref_axis',(-1.,0.,0.));
#178=DIRECTION('center_axis',(0.,0.,-1.));
#179=DIRECTION('ref_axis',(-1.,0.,0.));
#180=DIRECTION('',(1.,0.,0.));
#181=DIRECTION('center_axis',(0.,0.,-1.));
#182=DIRECTION('ref_axis',(-1.,0.,0.));
#183=DIRECTION('',(-1.,0.,0.));
#184=DIRECTION('center_axis',(0.,-1.,0.));
#185=DIRECTION('ref_axis',(-1.,0.,0.));
#186=DIRECTION('',(0.,0.,1.));
#187=DIRECTION('',(0.,0.,-1.));
#188=DIRECTION('',(-1.,0.,0.));
#189=DIRECTION('center_axis',(0.,1.,0.));
#190=DIRECTION('ref_axis',(1.,0.,0.));
#191=DIRECTION('',(0.,0.,-1.));
#192=DIRECTION('',(1.,0.,0.));
#193=DIRECTION('',(0.,0.,1.));
#194=DIRECTION('center_axis',(0.,0.,1.));
#195=DIRECTION('ref_axis',(-1.,0.,0.));
#196=DIRECTION('center_axis',(0.,0.,-1.));
#197=DIRECTION('ref_axis',(-1.,0.,0.));
#198=DIRECTION('center_axis',(0.,0.,-1.));
#199=DIRECTION('ref_axis',(-1.,0.,0.));
#200=DIRECTION('center_axis',(0.,0.,1.));
#201=DIRECTION('ref_axis',(-1.,0.,0.));
#202=DIRECTION('center_axis',(0.,0.,1.));
#203=DIRECTION('ref_axis',(1.,0.,0.));
#204=DIRECTION('center_axis',(0.,0.,1.));
#205=DIRECTION('ref_axis',(0.,1.,0.));
#206=DIRECTION('center_axis',(0.,0.,-1.));
#207=DIRECTION('ref_axis',(0.,1.,0.));
#208=DIRECTION('center_axis',(0.,0.,-1.));
#209=DIRECTION('ref_axis',(0.,1.,0.));
#210=DIRECTION('center_axis',(0.,0.,1.));
#211=DIRECTION('ref_axis',(0.,1.,0.));
#212=DIRECTION('center_axis',(6.12323399573677E-17,0.,1.));
#213=DIRECTION('ref_axis',(1.,0.,0.));
#214=DIRECTION('center_axis',(0.,0.,1.));
#215=DIRECTION('ref_axis',(1.,0.,0.));
#216=CARTESIAN_POINT('',(0.,0.,0.));
#217=CARTESIAN_POINT('Origin',(0.,1.74838271594513E-16,0.305));
#218=CARTESIAN_POINT('',(0.122958326273579,0.0225000000000002,0.305));
#219=CARTESIAN_POINT('',(0.122958326273579,-0.0224999999999998,0.305));
#220=CARTESIAN_POINT('Origin',(0.,0.,0.305));
#221=CARTESIAN_POINT('',(-0.122958326273579,0.0225000000000002,0.305));
#222=CARTESIAN_POINT('',(0.125,0.0225000000000002,0.305));
#223=CARTESIAN_POINT('',(-0.122958326273579,-0.0224999999999998,0.305));
#224=CARTESIAN_POINT('Origin',(0.,0.,0.305));
#225=CARTESIAN_POINT('',(-0.125,-0.0224999999999998,0.305));
#226=CARTESIAN_POINT('Origin',(0.125,-0.0224999999999998,0.365));
#227=CARTESIAN_POINT('',(0.122958326273579,-0.0224999999999998,0.34));
#228=CARTESIAN_POINT('',(0.122958326273579,-0.0224999999999998,0.));
#229=CARTESIAN_POINT('',(-0.122958326273579,-0.0224999999999998,0.34));
#230=CARTESIAN_POINT('',(-0.122958326273579,-0.0224999999999998,0.));
#231=CARTESIAN_POINT('',(-0.0974358763495252,-0.0224999999999998,0.365));
#232=CARTESIAN_POINT('Ctrl Pts',(-0.0974358763495252,-0.0224999999999998,
0.365));
#233=CARTESIAN_POINT('Ctrl Pts',(-0.108779187426979,-0.0224999999999998,
0.35394754544463));
#234=CARTESIAN_POINT('Ctrl Pts',(-0.122958326273579,-0.0224999999999998,
0.34));
#235=CARTESIAN_POINT('',(0.0974358763495252,-0.0224999999999998,0.365));
#236=CARTESIAN_POINT('',(0.0625,-0.0224999999999998,0.365));
#237=CARTESIAN_POINT('Ctrl Pts',(0.122958326273579,-0.0224999999999998,
0.34));
#238=CARTESIAN_POINT('Ctrl Pts',(0.108779187426979,-0.0224999999999998,
0.35394754544463));
#239=CARTESIAN_POINT('Ctrl Pts',(0.0974358763495252,-0.0224999999999998,
0.365));
#240=CARTESIAN_POINT('Origin',(-0.125,0.0225000000000002,0.365));
#241=CARTESIAN_POINT('',(0.122958326273579,0.0225000000000002,0.34));
#242=CARTESIAN_POINT('',(0.122958326273579,0.0225000000000002,0.));
#243=CARTESIAN_POINT('',(0.0974358763495252,0.0225000000000002,0.365));
#244=CARTESIAN_POINT('Ctrl Pts',(0.0974358763495252,0.0225000000000002,
0.365));
#245=CARTESIAN_POINT('Ctrl Pts',(0.108779187426979,0.0225000000000002,0.35394754544463));
#246=CARTESIAN_POINT('Ctrl Pts',(0.122958326273579,0.0225000000000002,0.34));
#247=CARTESIAN_POINT('',(-0.0974358763495252,0.0225000000000002,0.365));
#248=CARTESIAN_POINT('',(-0.0625,0.0225000000000002,0.365));
#249=CARTESIAN_POINT('',(-0.122958326273579,0.0225000000000002,0.34));
#250=CARTESIAN_POINT('Ctrl Pts',(-0.122958326273579,0.0225000000000002,
0.34));
#251=CARTESIAN_POINT('Ctrl Pts',(-0.108779187426979,0.0225000000000002,
0.35394754544463));
#252=CARTESIAN_POINT('Ctrl Pts',(-0.0974358763495252,0.0225000000000002,
0.365));
#253=CARTESIAN_POINT('',(-0.122958326273579,0.0225000000000002,0.));
#254=CARTESIAN_POINT('Origin',(0.,0.,0.));
#255=CARTESIAN_POINT('Origin',(0.,0.,0.34));
#256=CARTESIAN_POINT('Origin',(0.,0.,0.34));
#257=CARTESIAN_POINT('',(0.,0.125,0.04387505004004));
#258=CARTESIAN_POINT('Origin',(0.,0.,0.0438750500400398));
#259=CARTESIAN_POINT('Origin',(-7.011837515336E-18,-2.86808188311209E-18,
0.365));
#260=CARTESIAN_POINT('Origin',(0.,1.74838271594513E-16,0.365));
#261=CARTESIAN_POINT('Origin',(0.,1.74838271594513E-16,0.3525));
#262=CARTESIAN_POINT('Origin',(0.,1.74838271594513E-16,0.3525));
#263=CARTESIAN_POINT('Origin',(0.,1.74838271594513E-16,0.365));
#264=CARTESIAN_POINT('Origin',(0.,0.,0.2));
#265=CARTESIAN_POINT('Origin',(-7.011837515336E-18,-2.86808188311209E-18,
0.365));
#266=UNCERTAINTY_MEASURE_WITH_UNIT(LENGTH_MEASURE(0.000393700787401575),
#270,'DISTANCE_ACCURACY_VALUE',
'Maximum model space distance between geometric entities at asserted c
onnectivities');
#267=UNCERTAINTY_MEASURE_WITH_UNIT(LENGTH_MEASURE(1.E-6),#271,
'DISTANCE_ACCURACY_VALUE',
'Maximum model space distance between geometric entities at asserted c
onnectivities');
#268=(
GEOMETRIC_REPRESENTATION_CONTEXT(3)
GLOBAL_UNCERTAINTY_ASSIGNED_CONTEXT((#266))
GLOBAL_UNIT_ASSIGNED_CONTEXT((#270,#276,#273))
REPRESENTATION_CONTEXT('','3D')
);
#269=(
GEOMETRIC_REPRESENTATION_CONTEXT(3)
GLOBAL_UNCERTAINTY_ASSIGNED_CONTEXT((#267))
GLOBAL_UNIT_ASSIGNED_CONTEXT((#271,#276,#273))
REPRESENTATION_CONTEXT('','3D')
);
#270=(
CONVERSION_BASED_UNIT('__CONSTANT UNIT inch',#272)
LENGTH_UNIT()
NAMED_UNIT(#275)
);
#271=(
LENGTH_UNIT()
NAMED_UNIT(*)
SI_UNIT(.MILLI.,.METRE.)
);
#272=LENGTH_MEASURE_WITH_UNIT(LENGTH_MEASURE(25.4),#271);
#273=(
NAMED_UNIT(*)
SI_UNIT($,.STERADIAN.)
SOLID_ANGLE_UNIT()
);
#274=DIMENSIONAL_EXPONENTS(0.,0.,0.,0.,0.,0.,0.);
#275=DIMENSIONAL_EXPONENTS(1.,0.,0.,0.,0.,0.,0.);
#276=(
CONVERSION_BASED_UNIT('degree',#278)
NAMED_UNIT(#274)
PLANE_ANGLE_UNIT()
);
#277=(
NAMED_UNIT(*)
PLANE_ANGLE_UNIT()
SI_UNIT($,.RADIAN.)
);
#278=PLANE_ANGLE_MEASURE_WITH_UNIT(PLANE_ANGLE_MEASURE(0.01745329252),#277);
#279=SHAPE_DEFINITION_REPRESENTATION(#280,#281);
#280=PRODUCT_DEFINITION_SHAPE('',$,#283);
#281=SHAPE_REPRESENTATION('',(#157),#268);
#282=PRODUCT_DEFINITION_CONTEXT('part definition',#287,'design');
#283=PRODUCT_DEFINITION('11489','11489',#284,#282);
#284=PRODUCT_DEFINITION_FORMATION('',$,#289);
#285=PRODUCT_RELATED_PRODUCT_CATEGORY('11489','11489',(#289));
#286=APPLICATION_PROTOCOL_DEFINITION('international standard',
'automotive_design',2009,#287);
#287=APPLICATION_CONTEXT(
'Core Data for Automotive Mechanical Design Process');
#288=PRODUCT_CONTEXT('part definition',#287,'mechanical');
#289=PRODUCT('11489','11489',$,(#288));
#290=PRESENTATION_STYLE_ASSIGNMENT((#291));
#291=SURFACE_STYLE_USAGE(.BOTH.,#292);
#292=SURFACE_SIDE_STYLE('',(#293));
#293=SURFACE_STYLE_FILL_AREA(#294);
#294=FILL_AREA_STYLE('',(#295));
#295=FILL_AREA_STYLE_COLOUR('',#296);
#296=COLOUR_RGB('',0.749019607843137,0.749019607843137,0.749019607843137);
ENDSEC;
END-ISO-10303-21;
